Andrew W K - Party Hard (var.5) Bass Noten kostenlos herutnerladen oder online abspielen

Bass Noten für Party Hard (var.5) von Andrew W K kostenlos herutnerladen oder online abspielen: Datei .txt, 1.04 kb hat 76 Aufrufe und 0 Downloads.

Download bass noten "Party Hard (var.5)" (Andrew W K)

Andrew W K Bandname
Party Hard Songname
Bass Noten Registerkarten-Typ
1.04 kb Dateigröße
.TXT Dateityp
76 Aufrufe
0 Downloads
 
Bist du ein Roboter?

Party Hard (var.5) bass noten lesen onder online abpsielen

                    BASS
ANDREW W K
PARTY HARD

TABBED BY BILLY MILNE
EADG

INTRO
G----------------------------------|
D----------------------------------|
A----------------------------------|
E-0-0-0-0-0-0-0-0-0-0-0-0-0-0-0-0--|

VERSE
G---------------------------------------------------------|
D--------------------------------------------------1-2----|
A--------------------------------------4-2-2-2-2-2--------|
E-0-0-0-0-0--7-5-5-5--4-4-4--2-2-2-2-2--------------------|

PRE-CHORUS
G-------------------------------------|
D-------------------------------------|
A-7--7-7---5--5-5---3--3-3---2--2-2---|
E-------------------------------------|

G-------------------------|
D-------------------------|
A--------------------6-7--|
E-5-5-5--7--7-7-7--7------|

CHORUS
G----------------------------------|
D----------------------------------|
A----------------------------------|
E-0-0-0-0-0-0-0-0-5-5-5-5-5-5-5-5--|
END OF CHORUS
G-------------------------|
D-------------------------|
A--------------------7-7--|
E-5-5-5-5-5-5-5-5--7------|                    

Kommentare für bass noten — Party Hard (var.5) (Andrew W K)

Andere Party Hard (var.5) von Andrew W K Registerkarten:

Zuletzt angesehene Andrew W K Registerkarten: