Andrew W K - Party Hard (var.10) Gitarrennoten kostenlos herutnerladen oder online abspielen

Gitarrennoten für Party Hard (var.10) von Andrew W K kostenlos herutnerladen oder online abspielen: Datei .txt, 5.19 kb hat 87 Aufrufe und 0 Downloads.

Download gitarrennoten "Party Hard (var.10)" (Andrew W K)

Andrew W K Bandname
Party Hard Songname
Gitarrennoten Registerkarten-Typ
5.19 kb Dateigröße
.TXT Dateityp
87 Aufrufe
0 Downloads
 
Bist du ein Roboter?

Party Hard (var.10) gitarrennoten lesen onder online abpsielen

                    Date: Wed, 30 Oct 2002 10:43:29 -0500
From: Chris Clark 
Subject: w/wk_andrew/party_hard.tab

Artist: Andrew W.K.
Title: "Party Hard"
Album: "I Get Wet"

Original tab by: Amar Gogna
Revised by: Chris Clark

Tab: guitar
Tuning: Standard

The original tab submitted by Amar Gogna 
didn't quite capture the Slade-meets-Frankenstein scope and grandeur
of this epic stomp. This is the absolute 100% correct version for
those compelled to perform the feel-good hit of this summer.
Downstroke everything with extreme prejudice, and shake head
frenetically as required.

It is not possible to play this song loud enough.

Comments and crits to: drclueful@hotmail.com.

###

Intro

E(open)

Under the last notes of the lead sections, play

BBB-A

Then back to E(open) and repeat.

Lead - easy way (actual notes on top)

E Ab  E    A  E   B  E       Eb Eb E    E

e ---------------------------------------------I
B ------------------------------4--4--5----5---I
G ----1-------2-------4------------------------I
D -2-----2-------2-------2---------------------I
A ---------------------------------------------I
E ---------------------------------------------I

Ab E   A  E    B  E      F# F# Ab   E

e ------------------------------2--2--4----0---I
B ---------------------------------------------I
G -----1------2--------4-----------------------I
D---------2------2--------2--------------------I
A ---------------------------------------------I
E ---------------------------------------------I

Lead - fancy way - drone on the low E to keep the rhythm going

e ------------------------------11-11-12---12--I
B -------------------------------x--x--x----x--I
G -9--13--9---14-9----16-9-------8--8--9----9--I
D -x---x--x----x-x-----x-x---------------------I
A -7--11--7---12-7----14-7---------------------I
E ---------------------------------------------I

e ------------------------------14-14-16---12--I
B -------------------------------x--x--x----x--I
G ----13--9---14-9----16-9------11-11-13----9--I
D -----x--x----x-x-----x-x---------------------I
A ----11--7---12-7----14-7---------------------I
E ---------------------------------------------I

E (piano break)

Pre-verse riff

EEEEE B AAA AbAbAbAb F#F#F#F#F# C# BBBBB Eb
EEEEE B AAA AbAbAbAb F#F#F#F#F# C# BB E(7th fret barre) E(open)

After starting on E(open), jump up to B(7th fret barre) and slide
down to A(5th fret barre) for the first part, then use the B(2nd fret
barre) for the second B after the C# and before the Eb. You can slide
the Eb up to the E(7th fret barre) for the start of the next line,
but don't lose the rhythm if you head back down to E(open). Watch
out for the tricky jump at the end of the second line.

Verse (same as first line of above)

"You...you work all night..."
EEEEE B AAA AbAbAbAb F#F#F#F#F# C# BBBBB Eb

"And when..."
EEEEE B AAA AbAbAbAb F#F#F#F#F# C# BBBBB Eb

Bridge - notes on top - drone on the low E if ya wanna

"Cause we will never listen..."

E     D     C     E(open)

e -------------------------------I
B -------------------------------I
G -------------------1-----------I
D -------------------2-----------I
A -7-----5-----3-----2-----------I
E -------------------0-----------I

"We will never do..."

D     C     B  E  E(open)

e -------------------------------I
B -------------------------------I
G -------------------1-----------I
D -------------------2-----------I
A -5-----3-----2--7--2-----------I
E -------------------0-----------I

(pay attention to the return of the tricky jump)

"We know what we want..."

C     B     A     E(open)

e -------------------------------I
B -------------------------------I
G -------------------1-----------I
D -------------------2-----------I
A -3-----2-----0-----2-----------I
E -------------------0-----------I

"We do what we like..."
AAA B BBB B Eb E(7th fret barre)

(chorus)

"So let's get a party going...and we'll party hard..."
EEEE AA-Ab-A EEEE AA DD

Use E(open) and A(5th fret barre)

"Let's get a party going...when it's time to party..."
EEEE AA-Ab-A EEEE F# B E(7th fret barre)

"Party hard..."
E A E A E A B E(7th fret barre)

Use E(open) and A(open)

"Party hard..."
E A E A E A F# B E(7th fret barre)

Repeat the whole mess starting with the lead, and double the last two
"Party hard" riffs at the end. End on E and scream "augh!"

Recommended chord positions in order of appearance:

E (open)

G--1--I
D--2--I
A--2--I
E--0--I

B (2nd fret barre)

G--4--I
D--4--I
A--2--I
E--x--I

A (open)

G--2--I
D--2--I
A--0--I
E--x--I

B (7th fret barre)

G--x--I
D--9--I
A--9--I
E--7--I

A (5th fret barre)

G--x--I
D--7--I
A--7--I
E--5--I

Ab (G#)

G--x--I
D--6--I
A--6--I
E--4--I

F# (Gb)

G--x--I
D--4--I
A--4--I
E--2--I

C# (Db)

G--6--I
D--6--I
A--4--I
E--x--I

Eb (D#)

G--8--I
D--8--I
A--6--I
E--x--I

E (7th fret barre)

G--9--I
D--9--I
A--7--I
E--0--I

D

G--7--I
D--7--I
A--5--I
E--x--I                    

Kommentare für gitarrennoten — Party Hard (var.10) (Andrew W K)

Andere Party Hard (var.10) von Andrew W K Registerkarten:

Zuletzt angesehene Andrew W K Registerkarten: