Andrew W K - Ready To Die Bass Noten kostenlos herutnerladen oder online abspielen

Bass Noten für Ready To Die von Andrew W K kostenlos herutnerladen oder online abspielen: Datei .txt, 1.2 kb hat 44 Aufrufe und 0 Downloads.

Download bass noten "Ready To Die" (Andrew W K)

Andrew W K Bandname
Ready To Die Songname
Bass Noten Registerkarten-Typ
1.2 kb Dateigröße
.TXT Dateityp
44 Aufrufe
0 Downloads
 
Bist du ein Roboter?

Ready To Die bass noten lesen onder online abpsielen

                    -------------------------------------------------------------------------------
			     READY TO DIE - Andrew W.K.
-------------------------------------------------------------------------------

Tabbed By : John Arriola (Farranblackfox)
e-mail: Farranblackfox@yahoo.com
Hey! This is my first tab. I know there are a few mistakes, if you have any suggestions 
email me! There is a variation in the chorus on the last round about but there is little 
Thanks!!!

Tuning: Standard EADG

Intro
G|---------------------|
D|----------54---------|
A|-545-5545------------|
E|-------------555-910-|
*Thats a ten at the end

Bridge
G|---------------------------|
D|-------------------52------|
A|-5~-7~----3~-5-5-5~----245-|
E|-------2~------------------|

Chorus
G|----------------------------------|
D|-----------------------------5542-|
A|-55555555-77777777-5555-----------|
E|------------------------5555------|

Order:
Intro  x4
*rest*
Bridge x1
Chorus x4
Intro  x4
*rest*
Bridge x1
Chorus x8
Intro  x4


| /  slide up
| \  slide down
| h  hammer-on
| p  pull-off
| ~  vibrato
| +  harmonic
| x  Mute note
===============================================================================                    

Kommentare für bass noten — Ready To Die (Andrew W K)

Andere Ready To Die von Andrew W K Registerkarten:

Zuletzt angesehene Andrew W K Registerkarten: