Andrew W K - Ready To Die (var.6) Gitarrennoten kostenlos herutnerladen oder online abspielen

Gitarrennoten für Ready To Die (var.6) von Andrew W K kostenlos herutnerladen oder online abspielen: Datei .txt, 3.08 kb hat 39 Aufrufe und 0 Downloads.

Download gitarrennoten "Ready To Die (var.6)" (Andrew W K)

Andrew W K Bandname
Ready To Die Songname
Gitarrennoten Registerkarten-Typ
3.08 kb Dateigröße
.TXT Dateityp
39 Aufrufe
0 Downloads
 
Bist du ein Roboter?

Ready To Die (var.6) gitarrennoten lesen onder online abpsielen

                    Andrew W.K.
Ready To Die
I Get Wet








Riff A

e|-------------------------------------------|
B|-------------------------------------------|
G|---7-6-7---------6-7-----4---------6-7-----|
D|---7-6-7---7-7---6-7---5-4-7--7-7--6-7-----|
A|---5-4-5---7-7---4-5---5-2-7--7-7--4-5-----|
E|-----------5-5---------3---5--5-5----------|


Riff B

e|-------------------------------------------------------------------|
B|-------------------------------------------------------------------|
G|------------------------------------------7-7-7-7------------------|
D|--7-7-7-7-5-5-5-5-7-7-7-7-5-5-5-5-5-5-5-5-7-7-7-7-7-7-7-7-7-7-7-7--|
A|--7-7-7-7-5-5-5-5-7-7-7-7-5-5-5-5-5-5-5-5-5-5-5-5-7-7-7-7-7-7-7-7--|
E|--5-5-5-5-3-3-3-3-5-5-5-5-3-3-3-3-3-3-3-3---------5-5-5-5-5-5-5-5--|


e|---------------------------------------------------------------------|
B|---------------------------------------------------------------------|
G|---------------------------------------------------------------------|
D|-0-------------------------------------------------------------------|
A|----------------------------------------5--------------------5-4-5---|
E|------0------2------3-----------5--------------0------3--------------|


Riff C

e|---------------------3------3--3--3---|
B|--3------------------3------3--3--3---|
G|--2------------------0---2--0--0--0---|
D|--0--------2---------0---2--0--0--0---|
A|-----------2---------2---0--2--2--x---|
E|-----------0---------3------3--3--2---|

e|---------------------3------3--3--3---|
B|--3------------------3------3--3--3---|
G|--2------------------0---2--0--0--0---|
D|--0--------2---------0---2--0--0--0---|
A|-----------2---------2---0--2--2--x---|
E|-----------0---------3------3--3--2---|

e|---------------------3--3------|
B|--3------------------3--3------|
G|--2------------------0--0------|
D|--0--------2---------0--0------|
A|-----------2---------2--x------|
E|-----------0---------3--2-0-3-2|

e|----------------------------------------------------|
B|--3-------------------------------------------------|
G|--2-------------------------------------------------|
D|--0--------2---------8--7--5------5-7---------------|
A|-----------2---------8--7--5------5-7---------------|
E|-----------0---------6--5--3------3-5---------------|


Keyboard intro


Riff A 4x



Riff B

This is your time to pay, 
This is your judgement day, 
We made a sacrifice, 
And now we get to take your life. 

Riff B

We shoot without a gun, 
We'll take on anyone, 
It's really nothing new, 
It's just a thing we like to do. 

Riff C

You better get ready to die, 
You better get ready to kill, 
You better get ready to run, 
Cause here we come, 
You better get ready to die! 

Riff A 4x



Riff B

Your life is over now, 
Your life is running out, 
When your time is at an end, 
Then it's time to kill again, 

Riff B

We cut without a knife, 
We live in black and white, 
Your just a parasite, 
Now close your eyes and say good-night. 

Riff C

You better get ready to die, 
You better get ready to kill, 
You better get ready to run, 
Cause here we come, 
You better get ready to die! 
Get ready to die! 
Get ready to die!

Riff A 4x                    

Kommentare für gitarrennoten — Ready To Die (var.6) (Andrew W K)

Andere Ready To Die (var.6) von Andrew W K Registerkarten:

Zuletzt angesehene Andrew W K Registerkarten: