Andrew W K - Ready To Die (var.7) Gitarrennoten kostenlos herutnerladen oder online abspielen

Gitarrennoten für Ready To Die (var.7) von Andrew W K kostenlos herutnerladen oder online abspielen: Datei .txt, 6.09 kb hat 39 Aufrufe und 0 Downloads.

Download gitarrennoten "Ready To Die (var.7)" (Andrew W K)

Andrew W K Bandname
Ready To Die Songname
Gitarrennoten Registerkarten-Typ
6.09 kb Dateigröße
.TXT Dateityp
39 Aufrufe
0 Downloads
 
Bist du ein Roboter?

Ready To Die (var.7) gitarrennoten lesen onder online abpsielen

                    





drop D tuning (D A D G B E)



Intro: 00:00



Repeat 2 times







E|-10----------------9--10-------------------------------|

B|----10-7--10-7--7----------------8--7--5---10-10-------|

G|---------------------------7--7------------------6--7--|

D|-------------------------------------------------------|

A|-------------------------------------------------------|

D|-------------------------------------------------------|





Interlude: 00:10





Repeat 4 times



E|-10----------------9--10-------------------------------|

B|----10-7--10-7--7----------------8--7--5---10-10-------|

G|---------------------------7--7------------------6--7--|

D|-------------------------------------------------------|

A|-------------------------------------------------------|

D|-------------------------------------------------------|





Verse 1: 00:30





E|-------------------------------------14-14-12-12-10-10-9-9-5-|

B|-------------------------------------------------------------|

G|-------------------------------------------------------------|

D|-------------------------------------------------------------|

A|-------------------------------------------------------------|

D|-------------------------------------------------------------|





E|-------------------------------------------------------------|

B|-------------------------------------------------------------|

G|---------------------------------7------------------7---7----|

D|-0-----2-----4-----5---5-7---7---7----------5---7---7-7-7----|

A|-0-----2-----4-----5---5-7---7---5----------5---7---5-7-5----|

D|-0-----2-----4-----5---5-7---7--------------5---7-----7------|





Chorus: 00:51









E|-10----------10--12--15----14-12-|-10---------10--12--15----14-12-|

B|-------10------------------------|-------10-----------------------|

G|---------------------------------|--------------------------------|

D|---------------------------------|--------------------------------|

A|---------------------------------|--------------------------------|

D|---------------------------------|--------------------------------|



E|-10----12----15--14--12----15-17-|-10-----------------------------|

B|---------------------------------|-------10---11--10--8-----------|

G|---------------------------------|--------------------------------|

D|---------------------------------|--------------------------5--7--|

A|---------------------------------|--------------------------5--7--|

D|---------------------------------|--------------------------5--7--|







Interlude: 01:11









Repeat 4 times



E|-10----------------9--10-------------------------------|

B|----10-7--10-7--7----------------8--7--5---10-10-------|

G|---------------------------7--7------------------6--7--|

D|-------------------------------------------------------|

A|-------------------------------------------------------|

D|-------------------------------------------------------|





Verse 2: 01:32









E|-10---10-12---12-14---14-15---15-17---17-15---15-17----17-14-|

B|-------------------------------------------------------------|

G|-------------------------------------------------------------|

D|-------------------------------------------------------------|

A|-------------------------------------------------------------|

D|-------------------------------------------------------------|





E|------------------------------------------------------------|

B|------------------------------------------------------------|

G|-----------------------------------------7-----------7---7--|

D|-0-------2-------4----4--5-------7---7---7----5--7---7-7-7--|

A|-0-------2-------4----4--5-------7---7---5----5--7---5-7-5--|

D|-0-------2-------4----4--5-------7---7--------5--7-----7----|





Chorus: 01:52









E|-10---------10--12--15----14-12-|-10---------10--12--15----14-12-|

B|-------10-----------------------|-------10-----------------------|

G|--------------------------------|--------------------------------|

D|--------------------------------|--------------------------------|

A|--------------------------------|--------------------------------|

D|--------------------------------|--------------------------------|



E|-10----12---15--14--12----15-17-|-10---------10------------------|

B|--------------------------------|-------10-------10--8-----8--10-|

G|--------------------------------|--------------------------------|

D|--------------------------------|--------------------------------|

A|--------------------------------|--------------------------------|

D|--------------------------------|--------------------------------|

E|-10-----------------------11-11-|-10-----------------------11-11-|

B|-------10---11--10--8-----------|-------10---11--10--8-----------|

G|--------------------------------|--------------------------------|

D|--------------------------------|--------------------------------|

A|--------------------------------|--------------------------------|

D|--------------------------------|--------------------------------|



E|-10-----------------------11-11-|-10--12--15-15-15--14-12-10--10-|

B|-------10---11--10--8-----------|---------------------------10---|

G|--------------------------------|--------------------------------|

D|--------------------------------|--------------------------------|

A|--------------------------------|--------------------------------|

D|--------------------------------|--------------------------------|





Interlude: 02:33

Repeat 4 times



E|-10----------------9--10-------------------------------|

B|----10-7--10-7--7----------------8--7--5---10-10-------|

G|-------------------------------------------------6--7--|

D|-------------------------------------------------------|

A|-------------------------------------------------------|

D|-------------------------------------------------------|



enjoy!! if you find any problems with this tab email me demonicmage15@hotmail.com this is my first guitar tab so if there are any errors please tell me and il fix them



                    

Kommentare für gitarrennoten — Ready To Die (var.7) (Andrew W K)

Andere Ready To Die (var.7) von Andrew W K Registerkarten:

Zuletzt angesehene Andrew W K Registerkarten: