Andrew W K - Ready To Die (var.8) Gitarrennoten kostenlos herutnerladen oder online abspielen

Gitarrennoten für Ready To Die (var.8) von Andrew W K kostenlos herutnerladen oder online abspielen: Datei .txt, 3.86 kb hat 41 Aufrufe und 0 Downloads.

Download gitarrennoten "Ready To Die (var.8)" (Andrew W K)

Andrew W K Bandname
Ready To Die Songname
Gitarrennoten Registerkarten-Typ
3.86 kb Dateigröße
.TXT Dateityp
41 Aufrufe
0 Downloads
 
Bist du ein Roboter?

Ready To Die (var.8) gitarrennoten lesen onder online abpsielen

                    Artist - Andrew Wk
Album  - I get wet
Song   - Ready to Die
Tabbed - Rob Amato of The Nosebleeds (AWK cover band)

Noone has ever tabbed this so i figure i would, its the hardest Andrew wk song to play, good luck!

Intro - 6x
E------------------------------------------------------------------------
B------------------------------------------------------------------------
G-7-----------6-7-7-7-12-11-9-14-14-6-7----------------------------------
D---7-4-x-7-7------------------------------------------------------------
A------------------------------------------------------------------------
D------------------------------------------------------------------------

Verse - Guitar 1
E-------------------------------------------------------------------------
B-------------------------------------------------------------------------
G-/7-/9-/11-/12-14-14-19------/7-/9-/11-/12-14-14-19-12-12-12-11-9--------
D--------------------------7---------------------------------------12-12--
A--------------------------7----------------------------------------------
D--------------------------7----------------------------------------------

Verse - Guitar 2
E-------------------------------------------------------------------------
B-------------------------------------------------------------------------
G----------------------------------------------------12-12-12-11-9--------
D-------------------------7----------------------------------------12-12--
A-/5-/7-/9-/10-12-12-17---7-----------------------------------------------
D-------------------------7--7/0-0-2-2-4-4-5-5-77-12----------------------

Chorus - Guitar 1 x3
E-------------------------------------------------------------------------
B-------------------------------------------------------------------------
G-77777777-----------------------12-11-9----------------------------------
D-77777777-77777777--5555--7777-------------------------------------------
A-55555555-77777777--5555--7777--10--9-7----------------------------------
D----------77777777--5555--7777-------------------------------------------

Chorus - Guitar 2 x3
E-------------------------------------------------------------------------
B-------------------------------------------------------------------------
G-7------------------------------12-11-9----------------------------------
D----------7---------5-----7----------------------------------------------
A-5------------------------------10--9-7----------------------------------
D----------7---------5-----7----------------------------------------------

Chorus - Guitar 1 x1
E-------------------------------------------------------------------------
B-------------------------------------------------------------------------
G-77777777-----------10-9-7-----------------------------------------------
D-77777777-77777777--10-9-7--5-7------------------------------------------
A-55555555-77777777--8--7-5--5-7------------------------------------------
D----------77777777----------5-7------------------------------------------

Chorus - Guitar 2 x1
E-------------------------------------------------------------------------
B-------------------------------------------------------------------------
G-7------------------10-9-7-----------------------------------------------
D----------7-----------------5-7------------------------------------------
A-5------------------8--7-5--5-7------------------------------------------
D----------7-----------------5-7------------------------------------------

Intro Riff x4 and so on

These are all the basic riffs for the song, I am in an Andrew Wk cover band 

and figured i would tab this out. I tabbed out Party Till ya Puke as well. 

This is by far the most difficult Andrew Wk song on I Get Wet. Good luck with 

it! Any questions email me at evoltband@hotmail.com 

Thenosebleeds.cjb.net

Visit www.directTABS.com for more free tablature!                    

Kommentare für gitarrennoten — Ready To Die (var.8) (Andrew W K)

Andere Ready To Die (var.8) von Andrew W K Registerkarten:

Zuletzt angesehene Andrew W K Registerkarten: